0
SECTION
2
HEADER
9
$INSUNITS
70
1
9
$ACADVER
1
AC1014
9
$HANDSEED
5
FFFF
0
ENDSEC
0
SECTION
2
TABLES
0
TABLE
2
VPORT
5
8
100
AcDbSymbolTable
0
ENDTAB
0
TABLE
2
LTYPE
5
5
100
AcDbSymbolTable
0
LTYPE
5
14
100
AcDbSymbolTableRecord
100
AcDbLinetypeTableRecord
2
BYBLOCK
70
0
0
LTYPE
5
15
100
AcDbSymbolTableRecord
100
AcDbLinetypeTableRecord
2
BYLAYER
70
0
0
ENDTAB
0
TABLE
2
LAYER
5
2
100
AcDbSymbolTable
70
2
0
LAYER
5
50
100
AcDbSymbolTableRecord
100
AcDbLayerTableRecord
2
0
70
0
6
CONTINUOUS
0
ENDTAB
0
TABLE
2
STYLE
5
3
100
AcDbSymbolTable
70
1
0
STYLE
5
11
100
AcDbSymbolTableRecord
100
AcDbTextStyleTableRecord
2
STANDARD
70
0
0
ENDTAB
0
TABLE
2
VIEW
5
6
100
AcDbSymbolTable
70
0
0
ENDTAB
0
TABLE
2
UCS
5
7
100
AcDbSymbolTable
70
0
0
ENDTAB
0
TABLE
2
APPID
5
9
100
AcDbSymbolTable
70
2
0
APPID
5
12
100
AcDbSymbolTableRecord
100
AcDbRegAppTableRecord
2
ACAD
70
0
0
ENDTAB
0
TABLE
2
DIMSTYLE
5
A
100
AcDbSymbolTable
70
1
0
ENDTAB
0
TABLE
2
BLOCK_RECORD
5
1
100
AcDbSymbolTable
70
1
0
BLOCK_RECORD
5
1F
100
AcDbSymbolTableRecord
100
AcDbBlockTableRecord
2
*MODEL_SPACE
0
BLOCK_RECORD
5
1B
100
AcDbSymbolTableRecord
100
AcDbBlockTableRecord
2
*PAPER_SPACE
0
ENDTAB
0
ENDSEC
0
SECTION
2
BLOCKS
0
BLOCK
5
20
100
AcDbEntity
100
AcDbBlockBegin
2
*MODEL_SPACE
0
ENDBLK
5
21
100
AcDbEntity
100
AcDbBlockEnd
0
BLOCK
5
1C
100
AcDbEntity
100
AcDbBlockBegin
2
*PAPER_SPACE
0
ENDBLK
5
1D
100
AcDbEntity
100
AcDbBlockEnd
0
ENDSEC
0
SECTION
2
ENTITIES
0
CIRCLE
5
100
100
AcDbEntity
8
0
100
AcDbCircle
10
-0.34827556823440692
20
-0.13806632091699528
30
0
40
0.059055118110236178
210
0
220
0
230
1
0
CIRCLE
5
101
100
AcDbEntity
8
0
100
AcDbCircle
10
-0.021653476287060925
20
1.7850000638285943
30
0
40
0.059055118110236268
210
0
220
0
230
1
0
LWPOLYLINE
5
102
100
AcDbEntity
8
0
100
AcDbPolyline
90
4
70
1
43
0.0
10
-1.250000076898844
20
-0.50000010915145587
10
-1.2500000768988442
20
-0.60000010915145607
10
-1.0000000768988442
20
-0.60000010915145618
10
-1.0000000768988442
20
-0.50000010915145598
0
CIRCLE
5
103
100
AcDbEntity
8
0
100
AcDbCircle
10
0.96259849221687599
20
1.7850000638285943
30
0
40
0.059055118110236178
210
0
220
0
230
1
0
LWPOLYLINE
5
104
100
AcDbEntity
8
0
100
AcDbPolyline
90
4
70
1
43
0.0
10
-1.0000000768988442
20
-1.0499999674428586
10
-1.2500000768988442
20
-1.0499999674428586
10
-1.2500000768988442
20
-1.1499999674428587
10
-1.0000000768988442
20
-1.1499999674428587
0
CIRCLE
5
105
100
AcDbEntity
8
0
100
AcDbCircle
10
-0.34827556823438732
20
1.791067537350721
30
0
40
0.059055118110236358
210
0
220
0
230
1
0
CIRCLE
5
106
100
AcDbEntity
8
0
100
AcDbCircle
10
-0.021653476287060925
20
-0.97499993617140523
30
0
40
0.059055118110236095
210
0
220
0
230
1
0
CIRCLE
5
107
100
AcDbEntity
8
0
100
AcDbCircle
10
1.935188998694727
20
-0.13806632091701834
30
0
40
0.059055118110236358
210
0
220
0
230
1
0
CIRCLE
5
108
100
AcDbEntity
8
0
100
AcDbCircle
10
0.96259849221687599
20
-0.97499993617140523
30
0
40
0.059055118110236178
210
0
220
0
230
1
0
CIRCLE
5
109
100
AcDbEntity
8
0
100
AcDbCircle
10
1.93396278408522
20
1.7910675373506979
30
0
40
0.059055118110236358
210
0
220
0
230
1
0
LWPOLYLINE
5
110
100
AcDbEntity
8
0
100
AcDbPolyline
90
16
70
1
43
0.0
10
-1.5000000341938862
20
-0.53858272914007033
42
-0.41421361325011002
10
-1.4212598767135729
20
-0.45984255798219681
10
-0.45249002873397154
20
-0.45984255798219686
42
7.8729833462006669
10
-0.45249005413886079
20
-0.44015751861211821
10
-1.4212598865601394
20
-0.44015751861211821
42
-0.41421357662340252
10
-1.5000000440404542
20
-0.3614173573008107
10
-1.4999999329799742
20
1.9212599063482811
42
-0.41421356237309048
10
-1.4212597754996592
20
2.0000000638285957
10
2.0212599095397108
20
2.0000000638285957
42
-0.41421356237308982
10
2.1000000670200256
20
1.9212599063482807
10
2.1000000670200256
20
-1.1212597786910889
42
-0.41421356237308915
10
2.0212599095397108
20
-1.1999999361714042
10
-0.37500004787144714
20
-1.2000000382971574
42
0.99999875043379094
10
-0.45374020535170079
20
-1.2000000382971574
10
-1.4212597754996592
20
-1.199999936171404
42
-0.4142135623730937
10
-1.4999999329799742
20
-1.1212597786910889
0
ENDSEC
0
SECTION
2
OBJECTS
0
DICTIONARY
5
C
100
AcDbDictionary
3
ACAD_GROUP
350
D
3
ACAD_MLINESTYLE
350
17
0
DICTIONARY
5
D
100
AcDbDictionary
0
DICTIONARY
5
1A
330
C
100
AcDbDictionary
0
DICTIONARY
5
17
100
AcDbDictionary
0
ENDSEC
0
EOF
