0
SECTION
2
HEADER
9
$INSUNITS
70
1
9
$ACADVER
1
AC1014
9
$HANDSEED
5
FFFF
0
ENDSEC
0
SECTION
2
TABLES
0
TABLE
2
VPORT
5
8
100
AcDbSymbolTable
0
ENDTAB
0
TABLE
2
LTYPE
5
5
100
AcDbSymbolTable
0
LTYPE
5
14
100
AcDbSymbolTableRecord
100
AcDbLinetypeTableRecord
2
BYBLOCK
70
0
0
LTYPE
5
15
100
AcDbSymbolTableRecord
100
AcDbLinetypeTableRecord
2
BYLAYER
70
0
0
ENDTAB
0
TABLE
2
LAYER
5
2
100
AcDbSymbolTable
70
2
0
LAYER
5
50
100
AcDbSymbolTableRecord
100
AcDbLayerTableRecord
2
0
70
0
6
CONTINUOUS
0
ENDTAB
0
TABLE
2
STYLE
5
3
100
AcDbSymbolTable
70
1
0
STYLE
5
11
100
AcDbSymbolTableRecord
100
AcDbTextStyleTableRecord
2
STANDARD
70
0
0
ENDTAB
0
TABLE
2
VIEW
5
6
100
AcDbSymbolTable
70
0
0
ENDTAB
0
TABLE
2
UCS
5
7
100
AcDbSymbolTable
70
0
0
ENDTAB
0
TABLE
2
APPID
5
9
100
AcDbSymbolTable
70
2
0
APPID
5
12
100
AcDbSymbolTableRecord
100
AcDbRegAppTableRecord
2
ACAD
70
0
0
ENDTAB
0
TABLE
2
DIMSTYLE
5
A
100
AcDbSymbolTable
70
1
0
ENDTAB
0
TABLE
2
BLOCK_RECORD
5
1
100
AcDbSymbolTable
70
1
0
BLOCK_RECORD
5
1F
100
AcDbSymbolTableRecord
100
AcDbBlockTableRecord
2
*MODEL_SPACE
0
BLOCK_RECORD
5
1B
100
AcDbSymbolTableRecord
100
AcDbBlockTableRecord
2
*PAPER_SPACE
0
ENDTAB
0
ENDSEC
0
SECTION
2
BLOCKS
0
BLOCK
5
20
100
AcDbEntity
100
AcDbBlockBegin
2
*MODEL_SPACE
0
ENDBLK
5
21
100
AcDbEntity
100
AcDbBlockEnd
0
BLOCK
5
1C
100
AcDbEntity
100
AcDbBlockBegin
2
*PAPER_SPACE
0
ENDBLK
5
1D
100
AcDbEntity
100
AcDbBlockEnd
0
ENDSEC
0
SECTION
2
ENTITIES
0
LWPOLYLINE
5
100
100
AcDbEntity
8
0
100
AcDbPolyline
90
4
70
1
43
0.0
10
0.0055465790778086435
20
2.4897289546735526
42
-0.99999999999999989
10
0.10554657907780916
20
2.4897289546735526
10
0.10554657907780882
20
1.9662721188149415
42
-0.99999999999999989
10
0.0055465790778089939
20
1.9662721188149421
0
LWPOLYLINE
5
101
100
AcDbEntity
8
0
100
AcDbPolyline
90
4
70
1
43
0.0
10
2.6337457238519257
20
1.4813249614371906
42
-0.99999999999999989
10
2.6337457238519257
20
1.3813249614371907
10
2.2750000670200254
20
1.3813249614371905
42
-0.99999999999999989
10
2.2750000670200254
20
1.4813249614371908
0
LWPOLYLINE
5
102
100
AcDbEntity
8
0
100
AcDbPolyline
90
4
70
1
43
0.0
10
2.6337457238519257
20
1.3084678185800476
42
-0.99999999999999989
10
2.6337457238519257
20
1.2084678185800479
10
2.2750000670200254
20
1.2084678185800477
42
-0.99999999999999989
10
2.2750000670200254
20
1.3084678185800478
0
LWPOLYLINE
5
103
100
AcDbEntity
8
0
100
AcDbPolyline
90
4
70
1
43
0.0
10
0.16943546796669751
20
2.4897289546735526
42
-0.99999999999999989
10
0.26943546796669804
20
2.4897289546735526
10
0.26943546796669765
20
1.9662721188149415
42
-0.99999999999999989
10
0.16943546796669787
20
1.9662721188149421
0
LWPOLYLINE
5
104
100
AcDbEntity
8
0
100
AcDbPolyline
90
4
70
1
43
0.0
10
0.6611021346333642
20
2.4897289546735526
42
-0.99999999999999989
10
0.76110213463336474
20
2.4897289546735526
10
0.7611021346333644
20
1.9662721188149415
42
-0.99999999999999989
10
0.66110213463336454
20
1.9662721188149421
0
LWPOLYLINE
5
105
100
AcDbEntity
8
0
100
AcDbPolyline
90
4
70
1
43
0.0
10
0.49721324574447534
20
2.4897289546735526
42
-0.99999999999999989
10
0.59721324574447587
20
2.4897289546735526
10
0.59721324574447554
20
1.9662721188149415
42
-0.99999999999999989
10
0.49721324574447567
20
1.9662721188149421
0
LWPOLYLINE
5
106
100
AcDbEntity
8
0
100
AcDbPolyline
90
4
70
1
43
0.0
10
0.33332435685558637
20
2.4897289546735526
42
-0.99999999999999989
10
0.4333243568555869
20
2.4897289546735526
10
0.43332435685558651
20
1.9662721188149415
42
-0.99999999999999989
10
0.33332435685558676
20
1.9662721188149421
0
CIRCLE
5
107
100
AcDbEntity
8
0
100
AcDbCircle
10
-0.34827556823440692
20
-0.13806632091699528
30
0
40
0.059055118110236178
210
0
220
0
230
1
0
CIRCLE
5
108
100
AcDbEntity
8
0
100
AcDbCircle
10
-0.34827556823438732
20
1.791067537350721
30
0
40
0.059055118110236358
210
0
220
0
230
1
0
CIRCLE
5
109
100
AcDbEntity
8
0
100
AcDbCircle
10
1.93396278408522
20
1.7910675373506979
30
0
40
0.059055118110236358
210
0
220
0
230
1
0
LWPOLYLINE
5
110
100
AcDbEntity
8
0
100
AcDbPolyline
90
4
70
1
43
0.0
10
0.98887991241114204
20
2.4897289546735526
42
-0.99999999999999989
10
1.0888799124111426
20
2.4897289546735526
10
1.0888799124111421
20
1.9662721188149415
42
-0.99999999999999989
10
0.98887991241114237
20
1.9662721188149421
0
LWPOLYLINE
5
111
100
AcDbEntity
8
0
100
AcDbPolyline
90
4
70
1
43
0.0
10
1.1527688013000308
20
2.4897289546735526
42
-0.99999999999999989
10
1.2527688013000313
20
2.4897289546735526
10
1.2527688013000311
20
1.9662721188149415
42
-0.99999999999999989
10
1.1527688013000312
20
1.9662721188149421
0
LWPOLYLINE
5
112
100
AcDbEntity
8
0
100
AcDbPolyline
90
4
70
1
43
0.0
10
1.3166576901889198
20
2.4897289546735526
42
-0.99999999999999989
10
1.4166576901889203
20
2.4897289546735526
10
1.4166576901889198
20
1.9662721188149415
42
-0.99999999999999989
10
1.31665769018892
20
1.9662721188149421
0
LWPOLYLINE
5
113
100
AcDbEntity
8
0
100
AcDbPolyline
90
4
70
1
43
0.0
10
-0.060775568234399953
20
0.44943367908299886
10
-0.16077556823439995
20
0.44943367908300097
10
-0.16077556823440345
20
0.27443367908300109
10
-0.06077556823440345
20
0.27443367908299898
0
LWPOLYLINE
5
114
100
AcDbEntity
8
0
100
AcDbPolyline
90
4
70
1
43
0.0
10
1.4805465790778085
20
2.4897289546735526
42
-0.99999999999999989
10
1.580546579077809
20
2.4897289546735526
10
1.5805465790778088
20
1.9662721188149415
42
-0.99999999999999989
10
1.480546579077809
20
1.9662721188149421
0
LWPOLYLINE
5
115
100
AcDbEntity
8
0
100
AcDbPolyline
90
4
70
1
43
0.0
10
-0.63577556823440196
20
0.27443367908300459
10
-0.53577556823440198
20
0.27443367908300459
10
-0.53577556823440198
20
0.44943367908300447
10
-0.63577556823440196
20
0.44943367908300447
0
CIRCLE
5
116
100
AcDbEntity
8
0
100
AcDbCircle
10
1.4400617113986418
20
1.4737187116900865
30
0
40
0.059055118110236358
210
0
220
0
230
1
0
LWPOLYLINE
5
117
100
AcDbEntity
8
0
100
AcDbPolyline
90
4
70
1
43
0.0
10
-0.23916814531330985
20
-0.25617655713747745
10
1.4608318546866894
20
-0.25617655713747745
10
1.4608318546866894
20
-0.019956084696532702
10
-0.23916814531330979
20
-0.019956084696532702
0
CIRCLE
5
118
100
AcDbEntity
8
0
100
AcDbCircle
10
0.14613425060628862
20
1.4732099655359696
30
0
40
0.059055118110236227
210
0
220
0
230
1
0
CIRCLE
5
119
100
AcDbEntity
8
0
100
AcDbCircle
10
1.4400617113986418
20
0.17928250474361596
30
0
40
0.059055118110236358
210
0
220
0
230
1
0
LWPOLYLINE
5
120
100
AcDbEntity
8
0
100
AcDbPolyline
90
4
70
1
43
0.0
10
-0.060775568234399953
20
1.2035675373507269
10
-0.06077556823440345
20
1.3785675373507267
10
-0.16077556823440345
20
1.3785675373507247
10
-0.16077556823439995
20
1.2035675373507249
0
CIRCLE
5
121
100
AcDbEntity
8
0
100
AcDbCircle
10
1.935188998694727
20
-0.13806632091701834
30
0
40
0.059055118110236358
210
0
220
0
230
1
0
LWPOLYLINE
5
122
100
AcDbEntity
8
0
100
AcDbPolyline
90
4
70
1
43
0.0
10
0.82499102352225318
20
2.4897289546735526
42
-0.99999999999999989
10
0.9249910235222536
20
2.4897289546735526
10
0.92499102352225326
20
1.9662721188149415
42
-0.99999999999999989
10
0.82499102352225351
20
1.9662721188149421
0
LWPOLYLINE
5
123
100
AcDbEntity
8
0
100
AcDbPolyline
90
4
70
1
43
0.0
10
-0.63577556823440196
20
1.3785675373507209
10
-0.63577556823440196
20
1.2035675373507211
10
-0.53577556823440198
20
1.2035675373507211
10
-0.53577556823440198
20
1.3785675373507209
0
LWPOLYLINE
5
124
100
AcDbEntity
8
0
100
AcDbPolyline
90
2
70
1
43
0.0
10
1.4376557181921066
20
1.2056687260163874
10
1.4376557181921068
20
0.44733249041731521
42
0.27222590969756327
0
LWPOLYLINE
5
125
100
AcDbEntity
8
0
100
AcDbPolyline
90
4
70
1
43
0.0
10
0.45765571819210571
20
1.4978061415638049
42
-0.036103559272456724
10
0.55765571819210591
20
1.5382949037139688
10
0.55765571819210791
20
0.1147063127197387
42
-0.036103559272452054
10
0.45765571819210676
20
0.15519507486989742
0
LWPOLYLINE
5
126
100
AcDbEntity
8
0
100
AcDbPolyline
90
2
70
1
43
0.0
10
0.13765571819214892
20
0.45629644953921056
42
-0.26480387582125986
10
0.13765571819210581
20
1.1967047668945159
0
LWPOLYLINE
5
127
100
AcDbEntity
8
0
100
AcDbPolyline
90
4
70
1
43
0.0
10
1.1176557181921063
20
0.15266961150749006
10
1.1176557181921063
20
1.5003316049262125
42
0.035995032562722525
10
1.0176557181921064
20
1.5399504201725847
10
1.0176557181921069
20
0.11305079626111786
42
0.03599503256272233
0
LWPOLYLINE
5
128
100
AcDbEntity
8
0
100
AcDbPolyline
90
4
70
1
43
0.0
10
0.31765571819210803
20
1.4084379923933938
42
-0.040516030943797764
10
0.41765571819210606
20
1.4766168432873483
10
0.41765571819210923
20
0.17638437314636032
42
-0.040516030943793309
10
0.31765571819210653
20
0.24456322404030728
0
LWPOLYLINE
5
129
100
AcDbEntity
8
0
100
AcDbPolyline
90
4
70
1
43
0.0
10
0.17765571819211073
20
1.2594568636309933
42
-0.050879115722105635
10
0.27765571819210588
20
1.3737218789129357
10
0.2776557181921136
20
0.27927933752077372
42
-0.05087911572210152
10
0.17765571819210665
20
0.39354435280270633
0
LWPOLYLINE
5
130
100
AcDbEntity
8
0
100
AcDbPolyline
90
5
70
1
43
0.0
10
0.83765571819210627
20
0.90142843634738568
10
0.83765571819210627
20
1.5731886246438482
42
0.015853905032369598
10
0.79024966305967581
20
1.5745276067618652
42
0.017591734581671219
10
0.73765571819210674
20
1.5728591809566823
10
0.73765571819209386
20
0.90142843634740433
42
-0.30301824053909088
0
LWPOLYLINE
5
131
100
AcDbEntity
8
0
100
AcDbPolyline
90
5
70
1
43
0.0
10
0.7376557181921064
20
0.75157278008631689
10
0.7376557181921064
20
0.080142035477020021
42
0.017591734581674772
10
0.79024966305969391
20
0.078473609671830938
42
0.015853905032363905
10
0.83765571819210627
20
0.079812591789854656
10
0.83765571819209383
20
0.75157278008633566
42
-0.30301824053875559
0
LWPOLYLINE
5
132
100
AcDbEntity
8
0
100
AcDbPolyline
90
4
70
1
43
0.0
10
1.3976557181921065
20
0.38632629004622104
10
1.3976557181921065
20
1.2666749263874815
42
0.050266493916881497
10
1.2976557181921065
20
1.3785113440094796
10
1.2976557181921065
20
0.27448987242422268
42
0.050266493916881635
0
LWPOLYLINE
5
133
100
AcDbEntity
8
0
100
AcDbPolyline
90
4
70
1
43
0.0
10
0.59765571819210384
20
1.5499998266699464
42
-0.034019541711690499
10
0.69752207380745257
20
1.5690819473657547
10
0.6976318827542265
20
0.083905948826356061
42
-0.034056552870663982
10
0.59765571819210639
20
0.10300138976375733
0
LWPOLYLINE
5
134
100
AcDbEntity
8
0
100
AcDbPolyline
90
4
70
1
43
0.0
10
0.97765571819210628
20
0.10165883030872921
10
0.97765571819210628
20
1.5513423861249733
42
0.034019375423874898
10
0.87765571819210642
20
1.5697085367633294
10
0.87765571819210664
20
0.083292679670372891
42
0.034019375423874697
0
LWPOLYLINE
5
135
100
AcDbEntity
8
0
100
AcDbPolyline
90
4
70
1
43
0.0
10
1.2576557181921064
20
0.24041117711298363
10
1.2576557181921064
20
1.4125900393207189
42
0.040285374099871457
10
1.1576557181921063
20
1.4795421408202494
10
1.1576557181921063
20
0.17345907561345281
42
0.040285374099871631
0
LWPOLYLINE
5
136
100
AcDbEntity
8
0
100
AcDbPolyline
90
4
70
1
43
0.0
10
2.6337457238519257
20
1.1356106757229052
42
-0.99999999999999989
10
2.6337457238519257
20
1.0356106757229053
10
2.2750000670200254
20
1.0356106757229053
42
-0.99999999999999989
10
2.2750000670200254
20
1.1356106757229052
0
LWPOLYLINE
5
137
100
AcDbEntity
8
0
100
AcDbPolyline
90
4
70
1
43
0.0
10
2.6337457238519257
20
0.96275353286576215
42
-0.99999999999999989
10
2.6337457238519257
20
0.8627535328657624
10
2.2750000670200254
20
0.8627535328657624
42
-0.99999999999999989
10
2.2750000670200254
20
0.96275353286576215
0
LWPOLYLINE
5
138
100
AcDbEntity
8
0
100
AcDbPolyline
90
4
70
1
43
0.0
10
2.6337457238519248
20
0.78989639000861933
42
-0.99999999999999989
10
2.6337457238519257
20
0.68989639000861924
10
2.2750000670200263
20
0.68989639000861924
42
-0.99999999999999989
10
2.2750000670200254
20
0.78989639000861933
0
LWPOLYLINE
5
139
100
AcDbEntity
8
0
100
AcDbPolyline
90
4
70
1
43
0.0
10
2.6337457238519248
20
0.61703924715147651
42
-0.99999999999999989
10
2.6337457238519257
20
0.51703924715147642
10
2.2750000670200263
20
0.51703924715147642
42
-0.99999999999999989
10
2.2750000670200254
20
0.61703924715147651
0
LWPOLYLINE
5
140
100
AcDbEntity
8
0
100
AcDbPolyline
90
4
70
1
43
0.0
10
2.6337457238519248
20
0.2713249614371907
42
-0.99999999999999989
10
2.6337457238519257
20
0.17132496143719073
10
2.2750000670200263
20
0.17132496143719073
42
-0.99999999999999989
10
2.2750000670200254
20
0.2713249614371907
0
CIRCLE
5
141
100
AcDbEntity
8
0
100
AcDbCircle
10
0.14562550445217123
20
0.17928250474361596
30
0
40
0.059055118110236227
210
0
220
0
230
1
0
LWPOLYLINE
5
142
100
AcDbEntity
8
0
100
AcDbPolyline
90
4
70
1
43
0.0
10
2.6337457238519248
20
0.44418210429433352
42
-0.99999999999999989
10
2.6337457238519257
20
0.34418210429433355
10
2.2750000670200263
20
0.34418210429433355
42
-0.99999999999999989
10
2.2750000670200254
20
0.44418210429433352
0
LWPOLYLINE
5
143
100
AcDbEntity
8
0
100
AcDbPolyline
90
36
70
1
43
0.0
10
2.0212599095397108
20
-0.3732282632917871
10
1.5881890433979784
20
-0.37322826329178677
42
0.41421356237309598
10
1.5094488859176634
20
-0.45196842077210214
10
1.5094488758806446
20
-1.1212597786911054
42
-0.41421356237309698
10
1.4307087184003284
20
-1.1999999361714211
10
-1.4212597754996594
20
-1.1999999361714042
42
-0.41421356237309176
10
-1.4999999329799742
20
-1.1212597786910889
10
-1.4999999329799742
20
1.9212599063482811
42
-0.41421356237309115
10
-1.4212597754996592
20
2.0000000638285957
10
-0.21808319923682812
20
2.0000000638285957
42
-0.41421356237310053
10
-0.13934304175651324
20
1.9212599063482798
10
-0.13934304175651463
20
1.7910675373507188
10
-0.11965800238643579
20
1.7910675373507188
10
-0.11965800238643601
20
2.5859887971932385
42
-0.41421356237309825
10
-0.040917844906120111
20
2.6647289546735529
10
1.6266050607569298
20
2.6647289546735333
42
-0.41421356237309243
10
1.7053452182372433
20
2.5859887971932185
10
1.7053452182372433
20
1.7910675373506979
10
1.725030257607322
20
1.7910675373506979
10
1.7250302576073224
20
1.9212599063482811
42
-0.41421356237310025
10
1.803770415087637
20
2.0000000638285957
10
2.0212599095397108
20
2.0000000638285957
42
-0.41421356237308982
10
2.1000000670200256
20
1.9212599063482807
10
2.1000000670200261
20
1.703720378226804
42
-0.41402740304631591
10
2.0213099591054977
20
1.6249802366529797
10
1.9340683893398134
20
1.6249247833276732
10
1.9340809017312603
20
1.6052397479342173
10
2.7300055663716116
20
1.6052397479342175
42
-0.41421356237308787
10
2.8087457238519256
20
1.5264995904539025
10
2.8087457238519256
20
0.12506511891750571
42
-0.41421356237309209
10
2.7300055663716103
20
0.046324961437190788
10
1.9350843065290908
20
0.046324961437190788
10
1.9350843065290908
20
0.026639922067112118
10
2.0212599095397108
20
0.026639922067112205
42
-0.41421356237309276
10
2.1000000670200256
20
-0.052100235413202904
10
2.1000000670200256
20
-0.294488105811472
42
-0.41421356237309243
0
ENDSEC
0
SECTION
2
OBJECTS
0
DICTIONARY
5
C
100
AcDbDictionary
3
ACAD_GROUP
350
D
3
ACAD_MLINESTYLE
350
17
0
DICTIONARY
5
D
100
AcDbDictionary
0
DICTIONARY
5
1A
330
C
100
AcDbDictionary
0
DICTIONARY
5
17
100
AcDbDictionary
0
ENDSEC
0
EOF
